ISO-10303-21;
HEADER;
FILE_DESCRIPTION (( 'STEP AP203' ),
    '1' );
FILE_NAME ('Q-OZHWP-R2-12.7-633-M.STEP',
    '2020-12-22T09:14:32',
    ( '' ),
    ( '' ),
    'SwSTEP 2.0',
    'SolidWorks 2020',
    '' );
FILE_SCHEMA (( 'CONFIG_CONTROL_DESIGN' ));
ENDSEC;

DATA;
#1 = DIRECTION ( 'NONE',  ( 0.000000000000000000, 0.000000000000000000, 1.000000000000000000 ) ) ;
#2 = DIRECTION ( 'NONE',  ( -1.000000000000000000, -0.000000000000000000, -0.000000000000000000 ) ) ;
#3 = LOCAL_TIME ( 17, 14, 32.00000000000000000, #166 ) ;
#4 = EDGE_CURVE ( 'NONE', #82, #180, #177, .T. ) ;
#5 = ORIENTED_EDGE ( 'NONE', *, *, #201, .F. ) ;
#6 = PRODUCT_RELATED_PRODUCT_CATEGORY ( 'detail', '', ( #98 ) ) ;
#7 = ORIENTED_EDGE ( 'NONE', *, *, #246, .F. ) ;
#8 = CALENDAR_DATE ( 2020, 22, 12 ) ;
#9 = VERTEX_POINT ( 'NONE', #36 ) ;
#10 = CC_DESIGN_PERSON_AND_ORGANIZATION_ASSIGNMENT ( #86, #213, ( #98 ) ) ;
#11 = DIRECTION ( 'NONE',  ( 0.000000000000000000, 0.000000000000000000, 1.000000000000000000 ) ) ;
#12 = DIRECTION ( 'NONE',  ( -1.000000000000000000, -0.000000000000000000, -0.000000000000000000 ) ) ;
#13 = PRODUCT_DEFINITION_FORMATION_WITH_SPECIFIED_SOURCE ( 'ANY', '', #98, .NOT_KNOWN. ) ;
#14 = EDGE_LOOP ( 'NONE', ( #259, #291, #66, #112 ) ) ;
#15 = EDGE_CURVE ( 'NONE', #288, #289, #117, .T. ) ;
#16 = APPLICATION_PROTOCOL_DEFINITION ( 'international standard', 'config_control_design', 1994, #248 ) ;
#17 = CARTESIAN_POINT ( 'NONE',  ( -1.614212418857619014, 0.000000000000000000, 12.69999999999999929 ) ) ;
#18 = DIRECTION ( 'NONE',  ( -1.000000000000000000, -0.000000000000000000, -0.000000000000000000 ) ) ;
#19 = AXIS2_PLACEMENT_3D ( 'NONE', #167, #91, #39 ) ;
#20 = APPROVAL ( #67, 'UNSPECIFIED' ) ;
#21 = CYLINDRICAL_SURFACE ( 'NONE', #300, 6.349999999999999645 ) ;
#22 = VERTEX_POINT ( 'NONE', #162 ) ;
#23 = VECTOR ( 'NONE', #295, 1000.000000000000000 ) ;
#24 = CC_DESIGN_PERSON_AND_ORGANIZATION_ASSIGNMENT ( #235, #210, ( #13 ) ) ;
#25 = CARTESIAN_POINT ( 'NONE',  ( 3.000000000000000888, 0.000000000000000000, 6.349999999999999645 ) ) ;
#26 = APPROVAL_PERSON_ORGANIZATION ( #143, #47, #292 ) ;
#27 = DIRECTION ( 'NONE',  ( -1.000000000000000000, -0.000000000000000000, -0.000000000000000000 ) ) ;
#28 = ADVANCED_FACE ( 'NONE', ( #182 ), #41, .F. ) ;
#29 = ORIENTED_EDGE ( 'NONE', *, *, #206, .F. ) ;
#30 =( GEOMETRIC_REPRESENTATION_CONTEXT ( 3 ) GLOBAL_UNCERTAINTY_ASSIGNED_CONTEXT ( ( #265 ) ) GLOBAL_UNIT_ASSIGNED_CONTEXT ( ( #249, #59, #223 ) ) REPRESENTATION_CONTEXT ( 'NONE', 'WORKASPACE' ) );
#31 = CYLINDRICAL_SURFACE ( 'NONE', #328, 6.349999999999999645 ) ;
#32 = DIRECTION ( 'NONE',  ( 0.000000000000000000, 0.000000000000000000, -1.000000000000000000 ) ) ;
#33 = CARTESIAN_POINT ( 'NONE',  ( 3.000000000000000000, 1.555301434917138433E-15, -12.69999999999999929 ) ) ;
#34 = SECURITY_CLASSIFICATION ( '', '', #181 ) ;
#35 = APPROVAL_STATUS ( 'not_yet_approved' ) ;
#36 = CARTESIAN_POINT ( 'NONE',  ( -2.999999999999999556, 0.000000000000000000, 6.349999999999999645 ) ) ;
#37 = ORIENTED_EDGE ( 'NONE', *, *, #102, .F. ) ;
#38 = APPROVAL_ROLE ( '' ) ;
#39 = DIRECTION ( 'NONE',  ( 0.000000000000000000, 0.000000000000000000, 1.000000000000000000 ) ) ;
#40 = CALENDAR_DATE ( 2020, 22, 12 ) ;
#41 = CYLINDRICAL_SURFACE ( 'NONE', #312, 6.349999999999999645 ) ;
#42 = LOCAL_TIME ( 17, 14, 32.00000000000000000, #317 ) ;
#43 = CARTESIAN_POINT ( 'NONE',  ( -1.614212418857619014, 0.000000000000000000, 0.000000000000000000 ) ) ;
#44 = VECTOR ( 'NONE', #214, 1000.000000000000000 ) ;
#45 = DIRECTION ( 'NONE',  ( -1.000000000000000000, 0.000000000000000000, -0.000000000000000000 ) ) ;
#46 = DIRECTION ( 'NONE',  ( 0.000000000000000000, 0.000000000000000000, 1.000000000000000000 ) ) ;
#47 = APPROVAL ( #35, 'UNSPECIFIED' ) ;
#48 = DIRECTION ( 'NONE',  ( 0.000000000000000000, 0.000000000000000000, -1.000000000000000000 ) ) ;
#49 = LINE ( 'NONE', #332, #187 ) ;
#50 = AXIS2_PLACEMENT_3D ( 'NONE', #254, #57, #335 ) ;
#51 = ORIENTED_EDGE ( 'NONE', *, *, #77, .T. ) ;
#52 = EDGE_CURVE ( 'NONE', #114, #9, #74, .T. ) ;
#53 = CARTESIAN_POINT ( 'NONE',  ( 1.500000000000000444, 6.349999999999999645, 0.000000000000000000 ) ) ;
#54 = FACE_OUTER_BOUND ( 'NONE', #14, .T. ) ;
#55 = CC_DESIGN_PERSON_AND_ORGANIZATION_ASSIGNMENT ( #230, #116, ( #34 ) ) ;
#56 = ORIENTED_EDGE ( 'NONE', *, *, #221, .T. ) ;
#57 = DIRECTION ( 'NONE',  ( -1.000000000000000000, -0.000000000000000000, -0.000000000000000000 ) ) ;
#58 = ORIENTED_EDGE ( 'NONE', *, *, #52, .F. ) ;
#59 =( NAMED_UNIT ( * ) PLANE_ANGLE_UNIT ( ) SI_UNIT ( $, .RADIAN. ) );
#60 = AXIS2_PLACEMENT_3D ( 'NONE', #169, #244, #48 ) ;
#61 = ORIENTED_EDGE ( 'NONE', *, *, #201, .T. ) ;
#62 = CC_DESIGN_SECURITY_CLASSIFICATION ( #34, ( #13 ) ) ;
#63 = CALENDAR_DATE ( 2020, 22, 12 ) ;
#64 = CYLINDRICAL_SURFACE ( 'NONE', #163, 12.69999999999999929 ) ;
#65 = DIRECTION ( 'NONE',  ( -1.000000000000000000, -0.000000000000000000, -0.000000000000000000 ) ) ;
#66 = ORIENTED_EDGE ( 'NONE', *, *, #72, .T. ) ;
#67 = APPROVAL_STATUS ( 'not_yet_approved' ) ;
#68 = AXIS2_PLACEMENT_3D ( 'NONE', #76, #123, #46 ) ;
#69 = AXIS2_PLACEMENT_3D ( 'NONE', #149, #27, #150 ) ;
#70 = PERSON_AND_ORGANIZATION ( #106, #287 ) ;
#71 = CARTESIAN_POINT ( 'NONE',  ( -1.500000000000000444, 0.000000000000000000, 6.349999999999999645 ) ) ;
#72 = EDGE_CURVE ( 'NONE', #128, #22, #234, .T. ) ;
#73 = ORIENTED_EDGE ( 'NONE', *, *, #305, .T. ) ;
#74 = CIRCLE ( 'NONE', #216, 6.349999999999999645 ) ;
#75 = EDGE_LOOP ( 'NONE', ( #147, #320 ) ) ;
#76 = CARTESIAN_POINT ( 'NONE',  ( 1.500000000000000888, 0.000000000000000000, 0.000000000000000000 ) ) ;
#77 = EDGE_CURVE ( 'NONE', #212, #135, #222, .T. ) ;
#78 = VECTOR ( 'NONE', #303, 1000.000000000000000 ) ;
#79 = DIRECTION ( 'NONE',  ( -1.000000000000000000, -0.000000000000000000, -0.000000000000000000 ) ) ;
#80 = CARTESIAN_POINT ( 'NONE',  ( -1.500000000000000444, 6.349999999999999645, 0.000000000000000000 ) ) ;
#81 = AXIS2_PLACEMENT_3D ( 'NONE', #261, #11, #285 ) ;
#82 = VERTEX_POINT ( 'NONE', #179 ) ;
#83 = CARTESIAN_POINT ( 'NONE',  ( -1.500000000000000444, 7.776507174585692163E-16, -6.349999999999999645 ) ) ;
#84 = CARTESIAN_POINT ( 'NONE',  ( -1.614212418857619014, 0.000000000000000000, 0.000000000000000000 ) ) ;
#85 = EDGE_LOOP ( 'NONE', ( #73, #314, #138, #202 ) ) ;
#86 = PERSON_AND_ORGANIZATION ( #106, #287 ) ;
#87 = VERTEX_POINT ( 'NONE', #71 ) ;
#88 = PERSON_AND_ORGANIZATION_ROLE ( 'design_supplier' ) ;
#89 = CARTESIAN_POINT ( 'NONE',  ( 3.000000000000000000, 0.000000000000000000, 12.69999999999999929 ) ) ;
#90 = CALENDAR_DATE ( 2020, 22, 12 ) ;
#91 = DIRECTION ( 'NONE',  ( -1.000000000000000000, -0.000000000000000000, -0.000000000000000000 ) ) ;
#92 = EDGE_LOOP ( 'NONE', ( #242, #56, #260, #205 ) ) ;
#93 = AXIS2_PLACEMENT_3D ( 'NONE', #53, #45, #271 ) ;
#94 = DIRECTION ( 'NONE',  ( -1.000000000000000000, -0.000000000000000000, -0.000000000000000000 ) ) ;
#95 = CIRCLE ( 'NONE', #68, 6.349999999999999645 ) ;
#96 = PLANE ( 'NONE',  #93 ) ;
#97 = ADVANCED_FACE ( 'NONE', ( #325 ), #64, .T. ) ;
#98 = PRODUCT ( 'Q-OZHWP-R2-12.7-633-M', 'Q-OZHWP-R2-12.7-633-M', '', ( #203 ) ) ;
#99 = CARTESIAN_POINT ( 'NONE',  ( 3.000000000000000000, 0.000000000000000000, 0.000000000000000000 ) ) ;
#100 = DIRECTION ( 'NONE',  ( 0.000000000000000000, 0.000000000000000000, 1.000000000000000000 ) ) ;
#101 = AXIS2_PLACEMENT_3D ( 'NONE', #279, #277, #124 ) ;
#102 = EDGE_CURVE ( 'NONE', #22, #289, #307, .T. ) ;
#103 = PRODUCT_DEFINITION ( 'UNKNOWN', '', #13, #319 ) ;
#104 = DIRECTION ( 'NONE',  ( -1.000000000000000000, -0.000000000000000000, -0.000000000000000000 ) ) ;
#105 = FACE_OUTER_BOUND ( 'NONE', #298, .T. ) ;
#106 = PERSON ( 'UNSPECIFIED', 'UNSPECIFIED', 'UNSPECIFIED', ('UNSPECIFIED'), ('UNSPECIFIED'), ('UNSPECIFIED') ) ;
#107 = LOCAL_TIME ( 17, 14, 32.00000000000000000, #264 ) ;
#108 = EDGE_LOOP ( 'NONE', ( #283, #109 ) ) ;
#109 = ORIENTED_EDGE ( 'NONE', *, *, #272, .T. ) ;
#110 = APPROVAL_DATE_TIME ( #178, #47 ) ;
#111 = CARTESIAN_POINT ( 'NONE',  ( 3.000000000000000888, 0.000000000000000000, 0.000000000000000000 ) ) ;
#112 = ORIENTED_EDGE ( 'NONE', *, *, #272, .F. ) ;
#113 = COORDINATED_UNIVERSAL_TIME_OFFSET ( 8, 0, .AHEAD. ) ;
#114 = VERTEX_POINT ( 'NONE', #211 ) ;
#115 = ORIENTED_EDGE ( 'NONE', *, *, #326, .T. ) ;
#116 = PERSON_AND_ORGANIZATION_ROLE ( 'classification_officer' ) ;
#117 = LINE ( 'NONE', #134, #44 ) ;
#118 = DATE_AND_TIME ( #258, #3 ) ;
#119 = DIRECTION ( 'NONE',  ( 0.000000000000000000, 0.000000000000000000, 1.000000000000000000 ) ) ;
#120 = CIRCLE ( 'NONE', #151, 12.69999999999999929 ) ;
#121 = DIRECTION ( 'NONE',  ( -1.000000000000000000, -0.000000000000000000, -0.000000000000000000 ) ) ;
#122 = ORIENTED_EDGE ( 'NONE', *, *, #4, .F. ) ;
#123 = DIRECTION ( 'NONE',  ( -1.000000000000000000, -0.000000000000000000, -0.000000000000000000 ) ) ;
#124 = DIRECTION ( 'NONE',  ( -0.000000000000000000, 0.000000000000000000, 1.000000000000000000 ) ) ;
#125 = AXIS2_PLACEMENT_3D ( 'NONE', #165, #65, #269 ) ;
#126 = CARTESIAN_POINT ( 'NONE',  ( -1.614212418857619014, 0.000000000000000000, 6.349999999999999645 ) ) ;
#127 = EDGE_CURVE ( 'NONE', #135, #212, #270, .T. ) ;
#128 = VERTEX_POINT ( 'NONE', #89 ) ;
#129 = CC_DESIGN_DATE_AND_TIME_ASSIGNMENT ( #324, #183, ( #34 ) ) ;
#130 = DIRECTION ( 'NONE',  ( 0.000000000000000000, 0.000000000000000000, 1.000000000000000000 ) ) ;
#131 = CARTESIAN_POINT ( 'NONE',  ( -1.614212418857619014, 0.000000000000000000, 0.000000000000000000 ) ) ;
#132 = EDGE_LOOP ( 'NONE', ( #154, #311, #61, #29 ) ) ;
#133 = PERSON_AND_ORGANIZATION_ROLE ( 'creator' ) ;
#134 = CARTESIAN_POINT ( 'NONE',  ( -1.614212418857619014, 1.555301434917138433E-15, -12.69999999999999929 ) ) ;
#135 = VERTEX_POINT ( 'NONE', #236 ) ;
#136 = COORDINATED_UNIVERSAL_TIME_OFFSET ( 8, 0, .AHEAD. ) ;
#137 = ORIENTED_EDGE ( 'NONE', *, *, #221, .F. ) ;
#138 = ORIENTED_EDGE ( 'NONE', *, *, #52, .T. ) ;
#139 = ADVANCED_FACE ( 'NONE', ( #188 ), #96, .F. ) ;
#140 = AXIS2_PLACEMENT_3D ( 'NONE', #174, #197, #32 ) ;
#141 = DATE_AND_TIME ( #40, #107 ) ;
#142 = CARTESIAN_POINT ( 'NONE',  ( -2.999999999999999556, 0.000000000000000000, 0.000000000000000000 ) ) ;
#143 = PERSON_AND_ORGANIZATION ( #106, #287 ) ;
#144 = DIRECTION ( 'NONE',  ( -1.000000000000000000, -0.000000000000000000, -0.000000000000000000 ) ) ;
#145 = FACE_OUTER_BOUND ( 'NONE', #327, .T. ) ;
#146 = LOCAL_TIME ( 17, 14, 32.00000000000000000, #136 ) ;
#147 = ORIENTED_EDGE ( 'NONE', *, *, #326, .F. ) ;
#148 = LINE ( 'NONE', #189, #23 ) ;
#149 = CARTESIAN_POINT ( 'NONE',  ( -2.999999999999999556, 0.000000000000000000, 0.000000000000000000 ) ) ;
#150 = DIRECTION ( 'NONE',  ( 0.000000000000000000, 0.000000000000000000, 1.000000000000000000 ) ) ;
#151 = AXIS2_PLACEMENT_3D ( 'NONE', #308, #159, #176 ) ;
#152 = CYLINDRICAL_SURFACE ( 'NONE', #293, 12.69999999999999929 ) ;
#153 = AXIS2_PLACEMENT_3D ( 'NONE', #192, #217, #297 ) ;
#154 = ORIENTED_EDGE ( 'NONE', *, *, #127, .F. ) ;
#155 = CARTESIAN_POINT ( 'NONE',  ( -1.614212418857619014, 7.776507174585692163E-16, -6.349999999999999645 ) ) ;
#156 = ADVANCED_FACE ( 'NONE', ( #301, #275 ), #190, .F. ) ;
#157 = AXIS2_PLACEMENT_3D ( 'NONE', #80, #170, #218 ) ;
#158 = ORIENTED_EDGE ( 'NONE', *, *, #225, .F. ) ;
#159 = DIRECTION ( 'NONE',  ( -1.000000000000000000, -0.000000000000000000, -0.000000000000000000 ) ) ;
#160 = APPLICATION_PROTOCOL_DEFINITION ( 'international standard', 'config_control_design', 1994, #263 ) ;
#161 = PERSON_AND_ORGANIZATION ( #106, #287 ) ;
#162 = CARTESIAN_POINT ( 'NONE',  ( -3.000000000000000000, 0.000000000000000000, 12.69999999999999929 ) ) ;
#163 = AXIS2_PLACEMENT_3D ( 'NONE', #43, #12, #238 ) ;
#164 = APPROVAL_ROLE ( '' ) ;
#165 = CARTESIAN_POINT ( 'NONE',  ( 3.000000000000000888, 0.000000000000000000, 0.000000000000000000 ) ) ;
#166 = COORDINATED_UNIVERSAL_TIME_OFFSET ( 8, 0, .AHEAD. ) ;
#167 = CARTESIAN_POINT ( 'NONE',  ( 1.500000000000000888, 0.000000000000000000, 0.000000000000000000 ) ) ;
#168 = CC_DESIGN_APPROVAL ( #193, ( #13 ) ) ;
#169 = CARTESIAN_POINT ( 'NONE',  ( -1.500000000000000444, 0.000000000000000000, 0.000000000000000000 ) ) ;
#170 = DIRECTION ( 'NONE',  ( 1.000000000000000000, 0.000000000000000000, 0.000000000000000000 ) ) ;
#171 = FACE_OUTER_BOUND ( 'NONE', #85, .T. ) ;
#172 = CARTESIAN_POINT ( 'NONE',  ( -1.614212418857619014, 0.000000000000000000, 0.000000000000000000 ) ) ;
#173 = LINE ( 'NONE', #126, #78 ) ;
#174 = CARTESIAN_POINT ( 'NONE',  ( -1.500000000000000444, 0.000000000000000000, 0.000000000000000000 ) ) ;
#175 = CYLINDRICAL_SURFACE ( 'NONE', #219, 6.349999999999999645 ) ;
#176 = DIRECTION ( 'NONE',  ( 0.000000000000000000, 0.000000000000000000, 1.000000000000000000 ) ) ;
#177 = CIRCLE ( 'NONE', #19, 6.349999999999999645 ) ;
#178 = DATE_AND_TIME ( #63, #309 ) ;
#179 = CARTESIAN_POINT ( 'NONE',  ( 1.500000000000000888, 0.000000000000000000, 6.349999999999999645 ) ) ;
#180 = VERTEX_POINT ( 'NONE', #194 ) ;
#181 = SECURITY_CLASSIFICATION_LEVEL ( 'unclassified' ) ;
#182 = FACE_OUTER_BOUND ( 'NONE', #92, .T. ) ;
#183 = DATE_TIME_ROLE ( 'classification_date' ) ;
#184 = ORIENTED_EDGE ( 'NONE', *, *, #206, .T. ) ;
#185 = DATE_TIME_ROLE ( 'creation_date' ) ;
#186 = DIRECTION ( 'NONE',  ( 0.000000000000000000, 0.000000000000000000, 1.000000000000000000 ) ) ;
#187 = VECTOR ( 'NONE', #253, 1000.000000000000000 ) ;
#188 = FACE_OUTER_BOUND ( 'NONE', #273, .T. ) ;
#189 = CARTESIAN_POINT ( 'NONE',  ( -1.614212418857619014, 0.000000000000000000, 6.349999999999999645 ) ) ;
#190 = PLANE ( 'NONE',  #153 ) ;
#191 = ORIENTED_EDGE ( 'NONE', *, *, #127, .T. ) ;
#192 = CARTESIAN_POINT ( 'NONE',  ( -3.000000000000000000, 6.349999999999999645, 0.000000000000000000 ) ) ;
#193 = APPROVAL ( #262, 'UNSPECIFIED' ) ;
#194 = CARTESIAN_POINT ( 'NONE',  ( 1.500000000000000888, 7.776507174585692163E-16, -6.349999999999999645 ) ) ;
#195 = CC_DESIGN_APPROVAL ( #47, ( #103 ) ) ;
#196 = DIRECTION ( 'NONE',  ( -1.000000000000000000, -0.000000000000000000, -0.000000000000000000 ) ) ;
#197 = DIRECTION ( 'NONE',  ( 1.000000000000000000, 0.000000000000000000, 0.000000000000000000 ) ) ;
#198 = ADVANCED_FACE ( 'NONE', ( #171 ), #21, .F. ) ;
#199 = CIRCLE ( 'NONE', #60, 6.349999999999999645 ) ;
#200 = CARTESIAN_POINT ( 'NONE',  ( -1.614212418857619014, 0.000000000000000000, 0.000000000000000000 ) ) ;
#201 = EDGE_CURVE ( 'NONE', #180, #82, #95, .T. ) ;
#202 = ORIENTED_EDGE ( 'NONE', *, *, #250, .F. ) ;
#203 = MECHANICAL_CONTEXT ( 'NONE', #248, 'mechanical' ) ;
#204 = CLOSED_SHELL ( 'NONE', ( #97, #198, #333, #139, #299, #28, #156, #322, #240, #215 ) ) ;
#205 = ORIENTED_EDGE ( 'NONE', *, *, #225, .T. ) ;
#206 = EDGE_CURVE ( 'NONE', #212, #82, #148, .T. ) ;
#207 = DATE_AND_TIME ( #8, #146 ) ;
#208 = CARTESIAN_POINT ( 'NONE',  ( -3.000000000000000000, 0.000000000000000000, 0.000000000000000000 ) ) ;
#209 = CIRCLE ( 'NONE', #284, 12.69999999999999929 ) ;
#210 = PERSON_AND_ORGANIZATION_ROLE ( 'creator' ) ;
#211 = CARTESIAN_POINT ( 'NONE',  ( -2.999999999999999556, 7.776507174585692163E-16, -6.349999999999999645 ) ) ;
#212 = VERTEX_POINT ( 'NONE', #25 ) ;
#213 = PERSON_AND_ORGANIZATION_ROLE ( 'design_owner' ) ;
#214 = DIRECTION ( 'NONE',  ( -1.000000000000000000, -0.000000000000000000, -0.000000000000000000 ) ) ;
#215 = ADVANCED_FACE ( 'NONE', ( #145 ), #241, .F. ) ;
#216 = AXIS2_PLACEMENT_3D ( 'NONE', #142, #18, #186 ) ;
#217 = DIRECTION ( 'NONE',  ( 1.000000000000000000, 0.000000000000000000, 0.000000000000000000 ) ) ;
#218 = DIRECTION ( 'NONE',  ( 0.000000000000000000, 0.000000000000000000, -1.000000000000000000 ) ) ;
#219 = AXIS2_PLACEMENT_3D ( 'NONE', #84, #196, #130 ) ;
#220 = PLANE ( 'NONE',  #101 ) ;
#221 = EDGE_CURVE ( 'NONE', #256, #87, #199, .T. ) ;
#222 = CIRCLE ( 'NONE', #323, 6.349999999999999645 ) ;
#223 =( NAMED_UNIT ( * ) SI_UNIT ( $, .STERADIAN. ) SOLID_ANGLE_UNIT ( ) );
#224 = VECTOR ( 'NONE', #282, 1000.000000000000000 ) ;
#225 = EDGE_CURVE ( 'NONE', #9, #114, #237, .T. ) ;
#226 = FACE_OUTER_BOUND ( 'NONE', #132, .T. ) ;
#227 = ORIENTED_EDGE ( 'NONE', *, *, #305, .F. ) ;
#228 = PERSON_AND_ORGANIZATION ( #106, #287 ) ;
#229 = EDGE_LOOP ( 'NONE', ( #158, #58 ) ) ;
#230 = PERSON_AND_ORGANIZATION ( #106, #287 ) ;
#231 = CARTESIAN_POINT ( 'NONE',  ( -1.614212418857619014, 0.000000000000000000, 0.000000000000000000 ) ) ;
#232 = ORIENTED_EDGE ( 'NONE', *, *, #15, .T. ) ;
#233 = APPROVAL_DATE_TIME ( #141, #20 ) ;
#234 = LINE ( 'NONE', #17, #255 ) ;
#235 = PERSON_AND_ORGANIZATION ( #106, #287 ) ;
#236 = CARTESIAN_POINT ( 'NONE',  ( 3.000000000000000888, 7.776507174585692163E-16, -6.349999999999999645 ) ) ;
#237 = CIRCLE ( 'NONE', #69, 6.349999999999999645 ) ;
#238 = DIRECTION ( 'NONE',  ( 0.000000000000000000, 0.000000000000000000, 1.000000000000000000 ) ) ;
#239 = CC_DESIGN_PERSON_AND_ORGANIZATION_ASSIGNMENT ( #70, #88, ( #13 ) ) ;
#240 = ADVANCED_FACE ( 'NONE', ( #247, #245 ), #220, .F. ) ;
#241 = PLANE ( 'NONE',  #157 ) ;
#242 = ORIENTED_EDGE ( 'NONE', *, *, #267, .F. ) ;
#243 = EDGE_CURVE ( 'NONE', #288, #128, #209, .T. ) ;
#244 = DIRECTION ( 'NONE',  ( 1.000000000000000000, 0.000000000000000000, 0.000000000000000000 ) ) ;
#245 = FACE_BOUND ( 'NONE', #318, .T. ) ;
#246 = EDGE_CURVE ( 'NONE', #135, #180, #49, .T. ) ;
#247 = FACE_OUTER_BOUND ( 'NONE', #75, .T. ) ;
#248 = APPLICATION_CONTEXT ( 'configuration controlled 3d designs of mechanical parts and assemblies' ) ;
#249 =( LENGTH_UNIT ( ) NAMED_UNIT ( * ) SI_UNIT ( .MILLI., .METRE. ) );
#250 = EDGE_CURVE ( 'NONE', #87, #9, #173, .T. ) ;
#251 = CIRCLE ( 'NONE', #140, 6.349999999999999645 ) ;
#252 = CC_DESIGN_DATE_AND_TIME_ASSIGNMENT ( #118, #185, ( #103 ) ) ;
#253 = DIRECTION ( 'NONE',  ( -1.000000000000000000, -0.000000000000000000, -0.000000000000000000 ) ) ;
#254 = CARTESIAN_POINT ( 'NONE',  ( -3.000000000000000000, 0.000000000000000000, 0.000000000000000000 ) ) ;
#255 = VECTOR ( 'NONE', #321, 1000.000000000000000 ) ;
#256 = VERTEX_POINT ( 'NONE', #83 ) ;
#257 = EDGE_LOOP ( 'NONE', ( #115, #232, #37, #278 ) ) ;
#258 = CALENDAR_DATE ( 2020, 22, 12 ) ;
#259 = ORIENTED_EDGE ( 'NONE', *, *, #15, .F. ) ;
#260 = ORIENTED_EDGE ( 'NONE', *, *, #250, .T. ) ;
#261 = CARTESIAN_POINT ( 'NONE',  ( 0.000000000000000000, 0.000000000000000000, 0.000000000000000000 ) ) ;
#262 = APPROVAL_STATUS ( 'not_yet_approved' ) ;
#263 = APPLICATION_CONTEXT ( 'configuration controlled 3d designs of mechanical parts and assemblies' ) ;
#264 = COORDINATED_UNIVERSAL_TIME_OFFSET ( 8, 0, .AHEAD. ) ;
#265 = UNCERTAINTY_MEASURE_WITH_UNIT (LENGTH_MEASURE( 1.000000000000000082E-05 ), #249, 'distance_accuracy_value', 'NONE');
#266 = MANIFOLD_SOLID_BREP ( 'Ðý×', #204 ) ;
#267 = EDGE_CURVE ( 'NONE', #256, #114, #280, .T. ) ;
#268 = SHAPE_DEFINITION_REPRESENTATION ( #331, #329 ) ;
#269 = DIRECTION ( 'NONE',  ( 0.000000000000000000, 0.000000000000000000, 1.000000000000000000 ) ) ;
#270 = CIRCLE ( 'NONE', #125, 6.349999999999999645 ) ;
#271 = DIRECTION ( 'NONE',  ( -0.000000000000000000, 0.000000000000000000, 1.000000000000000000 ) ) ;
#272 = EDGE_CURVE ( 'NONE', #289, #22, #281, .T. ) ;
#273 = EDGE_LOOP ( 'NONE', ( #122, #5 ) ) ;
#274 = APPROVAL_PERSON_ORGANIZATION ( #290, #20, #164 ) ;
#275 = FACE_OUTER_BOUND ( 'NONE', #108, .T. ) ;
#276 = DIRECTION ( 'NONE',  ( 0.000000000000000000, 0.000000000000000000, 1.000000000000000000 ) ) ;
#277 = DIRECTION ( 'NONE',  ( -1.000000000000000000, 0.000000000000000000, -0.000000000000000000 ) ) ;
#278 = ORIENTED_EDGE ( 'NONE', *, *, #72, .F. ) ;
#279 = CARTESIAN_POINT ( 'NONE',  ( 3.000000000000000000, 12.69999999999999929, 0.000000000000000000 ) ) ;
#280 = LINE ( 'NONE', #155, #224 ) ;
#281 = CIRCLE ( 'NONE', #50, 12.69999999999999929 ) ;
#282 = DIRECTION ( 'NONE',  ( -1.000000000000000000, -0.000000000000000000, -0.000000000000000000 ) ) ;
#283 = ORIENTED_EDGE ( 'NONE', *, *, #102, .T. ) ;
#284 = AXIS2_PLACEMENT_3D ( 'NONE', #99, #121, #330 ) ;
#285 = DIRECTION ( 'NONE',  ( 1.000000000000000000, 0.000000000000000000, 0.000000000000000000 ) ) ;
#286 = DIRECTION ( 'NONE',  ( 0.000000000000000000, 0.000000000000000000, 1.000000000000000000 ) ) ;
#287 = ORGANIZATION ( 'UNSPECIFIED', 'UNSPECIFIED', '' ) ;
#288 = VERTEX_POINT ( 'NONE', #33 ) ;
#289 = VERTEX_POINT ( 'NONE', #306 ) ;
#290 = PERSON_AND_ORGANIZATION ( #106, #287 ) ;
#291 = ORIENTED_EDGE ( 'NONE', *, *, #243, .T. ) ;
#292 = APPROVAL_ROLE ( '' ) ;
#293 = AXIS2_PLACEMENT_3D ( 'NONE', #200, #2, #100 ) ;
#294 = DIRECTION ( 'NONE',  ( -1.000000000000000000, -0.000000000000000000, -0.000000000000000000 ) ) ;
#295 = DIRECTION ( 'NONE',  ( -1.000000000000000000, -0.000000000000000000, -0.000000000000000000 ) ) ;
#296 = AXIS2_PLACEMENT_3D ( 'NONE', #208, #144, #119 ) ;
#297 = DIRECTION ( 'NONE',  ( 0.000000000000000000, 0.000000000000000000, -1.000000000000000000 ) ) ;
#298 = EDGE_LOOP ( 'NONE', ( #7, #304, #184, #310 ) ) ;
#299 = ADVANCED_FACE ( 'NONE', ( #105 ), #31, .F. ) ;
#300 = AXIS2_PLACEMENT_3D ( 'NONE', #172, #79, #276 ) ;
#301 = FACE_BOUND ( 'NONE', #229, .T. ) ;
#302 = APPROVAL_PERSON_ORGANIZATION ( #228, #193, #38 ) ;
#303 = DIRECTION ( 'NONE',  ( -1.000000000000000000, -0.000000000000000000, -0.000000000000000000 ) ) ;
#304 = ORIENTED_EDGE ( 'NONE', *, *, #77, .F. ) ;
#305 = EDGE_CURVE ( 'NONE', #87, #256, #251, .T. ) ;
#306 = CARTESIAN_POINT ( 'NONE',  ( -3.000000000000000000, 1.555301434917138433E-15, -12.69999999999999929 ) ) ;
#307 = CIRCLE ( 'NONE', #296, 12.69999999999999929 ) ;
#308 = CARTESIAN_POINT ( 'NONE',  ( 3.000000000000000000, 0.000000000000000000, 0.000000000000000000 ) ) ;
#309 = LOCAL_TIME ( 17, 14, 32.00000000000000000, #113 ) ;
#310 = ORIENTED_EDGE ( 'NONE', *, *, #4, .T. ) ;
#311 = ORIENTED_EDGE ( 'NONE', *, *, #246, .T. ) ;
#312 = AXIS2_PLACEMENT_3D ( 'NONE', #231, #294, #286 ) ;
#313 = DIRECTION ( 'NONE',  ( 0.000000000000000000, 0.000000000000000000, 1.000000000000000000 ) ) ;
#314 = ORIENTED_EDGE ( 'NONE', *, *, #267, .T. ) ;
#315 = APPROVAL_DATE_TIME ( #207, #193 ) ;
#316 = CC_DESIGN_PERSON_AND_ORGANIZATION_ASSIGNMENT ( #161, #133, ( #103 ) ) ;
#317 = COORDINATED_UNIVERSAL_TIME_OFFSET ( 8, 0, .AHEAD. ) ;
#318 = EDGE_LOOP ( 'NONE', ( #51, #191 ) ) ;
#319 = DESIGN_CONTEXT ( 'detailed design', #263, 'design' ) ;
#320 = ORIENTED_EDGE ( 'NONE', *, *, #243, .F. ) ;
#321 = DIRECTION ( 'NONE',  ( -1.000000000000000000, -0.000000000000000000, -0.000000000000000000 ) ) ;
#322 = ADVANCED_FACE ( 'NONE', ( #54 ), #152, .T. ) ;
#323 = AXIS2_PLACEMENT_3D ( 'NONE', #111, #94, #313 ) ;
#324 = DATE_AND_TIME ( #90, #42 ) ;
#325 = FACE_OUTER_BOUND ( 'NONE', #257, .T. ) ;
#326 = EDGE_CURVE ( 'NONE', #128, #288, #120, .T. ) ;
#327 = EDGE_LOOP ( 'NONE', ( #227, #137 ) ) ;
#328 = AXIS2_PLACEMENT_3D ( 'NONE', #131, #104, #1 ) ;
#329 = ADVANCED_BREP_SHAPE_REPRESENTATION ( 'Q-OZHWP-R2-12.7-633-M', ( #266, #81 ), #30 ) ;
#330 = DIRECTION ( 'NONE',  ( 0.000000000000000000, 0.000000000000000000, 1.000000000000000000 ) ) ;
#331 = PRODUCT_DEFINITION_SHAPE ( 'NONE', 'NONE',  #103 ) ;
#332 = CARTESIAN_POINT ( 'NONE',  ( -1.614212418857619014, 7.776507174585692163E-16, -6.349999999999999645 ) ) ;
#333 = ADVANCED_FACE ( 'NONE', ( #226 ), #175, .F. ) ;
#334 = CC_DESIGN_APPROVAL ( #20, ( #34 ) ) ;
#335 = DIRECTION ( 'NONE',  ( 0.000000000000000000, 0.000000000000000000, 1.000000000000000000 ) ) ;
ENDSEC;
END-ISO-10303-21;
